ISO-10303-21;
HEADER;
FILE_DESCRIPTION (( 'STEP AP203' ),
    '1' );
FILE_NAME ('QB-CTZHWP-25.4-1310-M.STEP',
    '2020-12-24T01:36:22',
    ( '' ),
    ( '' ),
    'SwSTEP 2.0',
    'SolidWorks 2020',
    '' );
FILE_SCHEMA (( 'CONFIG_CONTROL_DESIGN' ));
ENDSEC;

DATA;
#1 = COORDINATED_UNIVERSAL_TIME_OFFSET ( 8, 0, .AHEAD. ) ;
#2 = ADVANCED_FACE ( 'NONE', ( #145 ), #128, .T. ) ;
#3 = DATE_TIME_ROLE ( 'creation_date' ) ;
#4 = UNCERTAINTY_MEASURE_WITH_UNIT (LENGTH_MEASURE( 1.000000000000000082E-05 ), #154, 'distance_accuracy_value', 'NONE');
#5 = ORIENTED_EDGE ( 'NONE', *, *, #161, .F. ) ;
#6 = CC_DESIGN_PERSON_AND_ORGANIZATION_ASSIGNMENT ( #17, #28, ( #158 ) ) ;
#7 = SECURITY_CLASSIFICATION ( '', '', #135 ) ;
#8 = DIRECTION ( 'NONE',  ( -1.000000000000000000, -0.000000000000000000, -0.000000000000000000 ) ) ;
#9 = CIRCLE ( 'NONE', #164, 15.00000000000000000 ) ;
#10 = ORIENTED_EDGE ( 'NONE', *, *, #82, .T. ) ;
#11 = CYLINDRICAL_SURFACE ( 'NONE', #144, 15.00000000000000000 ) ;
#12 = AXIS2_PLACEMENT_3D ( 'NONE', #50, #8, #59 ) ;
#13 = CARTESIAN_POINT ( 'NONE',  ( -3.000000000000000000, 0.000000000000000000, 15.00000000000000000 ) ) ;
#14 = PERSON_AND_ORGANIZATION ( #99, #21 ) ;
#15 = SHAPE_DEFINITION_REPRESENTATION ( #122, #169 ) ;
#16 = APPROVAL ( #83, 'UNSPECIFIED' ) ;
#17 = PERSON_AND_ORGANIZATION ( #99, #21 ) ;
#18 = APPROVAL_PERSON_ORGANIZATION ( #108, #100, #115 ) ;
#19 = CC_DESIGN_DATE_AND_TIME_ASSIGNMENT ( #149, #162, ( #7 ) ) ;
#20 = LOCAL_TIME ( 9, 36, 22.00000000000000000, #1 ) ;
#21 = ORGANIZATION ( 'UNSPECIFIED', 'UNSPECIFIED', '' ) ;
#22 =( NAMED_UNIT ( * ) PLANE_ANGLE_UNIT ( ) SI_UNIT ( $, .RADIAN. ) );
#23 = ORIENTED_EDGE ( 'NONE', *, *, #80, .T. ) ;
#24 = DIRECTION ( 'NONE',  ( 0.000000000000000000, 0.000000000000000000, 1.000000000000000000 ) ) ;
#25 = VERTEX_POINT ( 'NONE', #140 ) ;
#26 = VERTEX_POINT ( 'NONE', #13 ) ;
#27 = DIRECTION ( 'NONE',  ( 0.000000000000000000, 0.000000000000000000, 1.000000000000000000 ) ) ;
#28 = PERSON_AND_ORGANIZATION_ROLE ( 'creator' ) ;
#29 = PRODUCT_DEFINITION ( 'UNKNOWN', '', #158, #48 ) ;
#30 = CALENDAR_DATE ( 2020, 24, 12 ) ;
#31 = APPLICATION_CONTEXT ( 'configuration controlled 3d designs of mechanical parts and assemblies' ) ;
#32 = AXIS2_PLACEMENT_3D ( 'NONE', #103, #156, #42 ) ;
#33 = CARTESIAN_POINT ( 'NONE',  ( 0.000000000000000000, 0.000000000000000000, 0.000000000000000000 ) ) ;
#34 = CARTESIAN_POINT ( 'NONE',  ( -1.614212418857619014, 1.836970198721029589E-15, -15.00000000000000000 ) ) ;
#35 = DIRECTION ( 'NONE',  ( -1.000000000000000000, -0.000000000000000000, -0.000000000000000000 ) ) ;
#36 = DIRECTION ( 'NONE',  ( 0.000000000000000000, 0.000000000000000000, 1.000000000000000000 ) ) ;
#37 = APPLICATION_CONTEXT ( 'configuration controlled 3d designs of mechanical parts and assemblies' ) ;
#38 = LOCAL_TIME ( 9, 36, 22.00000000000000000, #141 ) ;
#39 = EDGE_CURVE ( 'NONE', #172, #26, #60, .T. ) ;
#40 = ORIENTED_EDGE ( 'NONE', *, *, #84, .F. ) ;
#41 = FACE_OUTER_BOUND ( 'NONE', #77, .T. ) ;
#42 = DIRECTION ( 'NONE',  ( -0.000000000000000000, 0.000000000000000000, 1.000000000000000000 ) ) ;
#43 = CC_DESIGN_DATE_AND_TIME_ASSIGNMENT ( #67, #3, ( #29 ) ) ;
#44 = APPROVAL_ROLE ( '' ) ;
#45 = PERSON_AND_ORGANIZATION ( #99, #21 ) ;
#46 = CC_DESIGN_APPROVAL ( #100, ( #29 ) ) ;
#47 = APPROVAL ( #175, 'UNSPECIFIED' ) ;
#48 = DESIGN_CONTEXT ( 'detailed design', #31, 'design' ) ;
#49 = CLOSED_SHELL ( 'NONE', ( #2, #150, #165, #126 ) ) ;
#50 = CARTESIAN_POINT ( 'NONE',  ( 3.000000000000000000, 0.000000000000000000, 0.000000000000000000 ) ) ;
#51 = CARTESIAN_POINT ( 'NONE',  ( 3.000000000000000000, 1.836970198721029589E-15, -15.00000000000000000 ) ) ;
#52 = APPLICATION_PROTOCOL_DEFINITION ( 'international standard', 'config_control_design', 1994, #31 ) ;
#53 = ORIENTED_EDGE ( 'NONE', *, *, #161, .T. ) ;
#54 = CARTESIAN_POINT ( 'NONE',  ( -3.000000000000000888, 12.69999999999999929, 0.000000000000000000 ) ) ;
#55 = PERSON_AND_ORGANIZATION ( #99, #21 ) ;
#56 = DATE_AND_TIME ( #95, #66 ) ;
#57 = CC_DESIGN_PERSON_AND_ORGANIZATION_ASSIGNMENT ( #75, #94, ( #70 ) ) ;
#58 = AXIS2_PLACEMENT_3D ( 'NONE', #167, #117, #168 ) ;
#59 = DIRECTION ( 'NONE',  ( 0.000000000000000000, 0.000000000000000000, 1.000000000000000000 ) ) ;
#60 = LINE ( 'NONE', #157, #124 ) ;
#61 = FACE_OUTER_BOUND ( 'NONE', #113, .T. ) ;
#62 = CALENDAR_DATE ( 2020, 24, 12 ) ;
#63 = APPROVAL_PERSON_ORGANIZATION ( #55, #16, #110 ) ;
#64 = APPROVAL_DATE_TIME ( #96, #16 ) ;
#65 = MANIFOLD_SOLID_BREP ( 'Ðý×', #49 ) ;
#66 = LOCAL_TIME ( 9, 36, 22.00000000000000000, #137 ) ;
#67 = DATE_AND_TIME ( #97, #38 ) ;
#68 = PRODUCT_RELATED_PRODUCT_CATEGORY ( 'detail', '', ( #70 ) ) ;
#69 = PERSON_AND_ORGANIZATION ( #99, #21 ) ;
#70 = PRODUCT ( 'QB-CTZHWP-25.4-1310-M', 'QB-CTZHWP-25.4-1310-M', '', ( #160 ) ) ;
#71 = DIRECTION ( 'NONE',  ( 0.000000000000000000, 0.000000000000000000, -1.000000000000000000 ) ) ;
#72 = PLANE ( 'NONE',  #32 ) ;
#73 = CC_DESIGN_APPROVAL ( #47, ( #7 ) ) ;
#74 = ORIENTED_EDGE ( 'NONE', *, *, #84, .T. ) ;
#75 = PERSON_AND_ORGANIZATION ( #99, #21 ) ;
#76 = CARTESIAN_POINT ( 'NONE',  ( -1.614212418857619014, 0.000000000000000000, 0.000000000000000000 ) ) ;
#77 = EDGE_LOOP ( 'NONE', ( #5, #142 ) ) ;
#78 = APPROVAL_STATUS ( 'not_yet_approved' ) ;
#79 = APPROVAL_DATE_TIME ( #56, #47 ) ;
#80 = EDGE_CURVE ( 'NONE', #91, #172, #163, .T. ) ;
#81 = CALENDAR_DATE ( 2020, 24, 12 ) ;
#82 = EDGE_CURVE ( 'NONE', #91, #25, #155, .T. ) ;
#83 = APPROVAL_STATUS ( 'not_yet_approved' ) ;
#84 = EDGE_CURVE ( 'NONE', #26, #25, #106, .T. ) ;
#85 = VECTOR ( 'NONE', #89, 1000.000000000000000 ) ;
#86 = APPROVAL_PERSON_ORGANIZATION ( #121, #47, #44 ) ;
#87 = DIRECTION ( 'NONE',  ( -1.000000000000000000, -0.000000000000000000, -0.000000000000000000 ) ) ;
#88 = APPLICATION_PROTOCOL_DEFINITION ( 'international standard', 'config_control_design', 1994, #37 ) ;
#89 = DIRECTION ( 'NONE',  ( -1.000000000000000000, -0.000000000000000000, -0.000000000000000000 ) ) ;
#90 = CARTESIAN_POINT ( 'NONE',  ( 3.000000000000000000, 0.000000000000000000, 15.00000000000000000 ) ) ;
#91 = VERTEX_POINT ( 'NONE', #51 ) ;
#92 = DIRECTION ( 'NONE',  ( 0.000000000000000000, 0.000000000000000000, 1.000000000000000000 ) ) ;
#93 = ORIENTED_EDGE ( 'NONE', *, *, #39, .F. ) ;
#94 = PERSON_AND_ORGANIZATION_ROLE ( 'design_owner' ) ;
#95 = CALENDAR_DATE ( 2020, 24, 12 ) ;
#96 = DATE_AND_TIME ( #81, #112 ) ;
#97 = CALENDAR_DATE ( 2020, 24, 12 ) ;
#98 = PERSON_AND_ORGANIZATION_ROLE ( 'design_supplier' ) ;
#99 = PERSON ( 'UNSPECIFIED', 'UNSPECIFIED', 'UNSPECIFIED', ('UNSPECIFIED'), ('UNSPECIFIED'), ('UNSPECIFIED') ) ;
#100 = APPROVAL ( #78, 'UNSPECIFIED' ) ;
#101 = CC_DESIGN_APPROVAL ( #16, ( #158 ) ) ;
#102 = PLANE ( 'NONE',  #129 ) ;
#103 = CARTESIAN_POINT ( 'NONE',  ( 3.000000000000000888, 12.69999999999999929, 0.000000000000000000 ) ) ;
#104 = ORIENTED_EDGE ( 'NONE', *, *, #174, .F. ) ;
#105 = DIRECTION ( 'NONE',  ( 1.000000000000000000, 0.000000000000000000, 0.000000000000000000 ) ) ;
#106 = CIRCLE ( 'NONE', #58, 15.00000000000000000 ) ;
#107 = DIRECTION ( 'NONE',  ( -1.000000000000000000, -0.000000000000000000, -0.000000000000000000 ) ) ;
#108 = PERSON_AND_ORGANIZATION ( #99, #21 ) ;
#109 = DIRECTION ( 'NONE',  ( 1.000000000000000000, 0.000000000000000000, 0.000000000000000000 ) ) ;
#110 = APPROVAL_ROLE ( '' ) ;
#111 = CIRCLE ( 'NONE', #134, 15.00000000000000000 ) ;
#112 = LOCAL_TIME ( 9, 36, 22.00000000000000000, #148 ) ;
#113 = EDGE_LOOP ( 'NONE', ( #74, #123 ) ) ;
#114 = LOCAL_TIME ( 9, 36, 22.00000000000000000, #166 ) ;
#115 = APPROVAL_ROLE ( '' ) ;
#116 = ORIENTED_EDGE ( 'NONE', *, *, #82, .F. ) ;
#117 = DIRECTION ( 'NONE',  ( -1.000000000000000000, -0.000000000000000000, -0.000000000000000000 ) ) ;
#118 = EDGE_LOOP ( 'NONE', ( #53, #10, #40, #93 ) ) ;
#119 = AXIS2_PLACEMENT_3D ( 'NONE', #33, #27, #105 ) ;
#120 = CC_DESIGN_PERSON_AND_ORGANIZATION_ASSIGNMENT ( #45, #98, ( #158 ) ) ;
#121 = PERSON_AND_ORGANIZATION ( #99, #21 ) ;
#122 = PRODUCT_DEFINITION_SHAPE ( 'NONE', 'NONE',  #29 ) ;
#123 = ORIENTED_EDGE ( 'NONE', *, *, #174, .T. ) ;
#124 = VECTOR ( 'NONE', #87, 1000.000000000000000 ) ;
#125 = CARTESIAN_POINT ( 'NONE',  ( 3.000000000000000000, 0.000000000000000000, 0.000000000000000000 ) ) ;
#126 = ADVANCED_FACE ( 'NONE', ( #61 ), #102, .F. ) ;
#127 = DATE_AND_TIME ( #62, #114 ) ;
#128 = CYLINDRICAL_SURFACE ( 'NONE', #152, 15.00000000000000000 ) ;
#129 = AXIS2_PLACEMENT_3D ( 'NONE', #54, #109, #71 ) ;
#130 = DIRECTION ( 'NONE',  ( -1.000000000000000000, -0.000000000000000000, -0.000000000000000000 ) ) ;
#131 = CARTESIAN_POINT ( 'NONE',  ( -1.614212418857619014, 0.000000000000000000, 0.000000000000000000 ) ) ;
#132 = DIRECTION ( 'NONE',  ( 0.000000000000000000, 0.000000000000000000, 1.000000000000000000 ) ) ;
#133 = APPROVAL_DATE_TIME ( #127, #100 ) ;
#134 = AXIS2_PLACEMENT_3D ( 'NONE', #125, #130, #36 ) ;
#135 = SECURITY_CLASSIFICATION_LEVEL ( 'unclassified' ) ;
#136 = CC_DESIGN_PERSON_AND_ORGANIZATION_ASSIGNMENT ( #69, #151, ( #7 ) ) ;
#137 = COORDINATED_UNIVERSAL_TIME_OFFSET ( 8, 0, .AHEAD. ) ;
#138 = CC_DESIGN_SECURITY_CLASSIFICATION ( #7, ( #158 ) ) ;
#139 = DIRECTION ( 'NONE',  ( -1.000000000000000000, -0.000000000000000000, -0.000000000000000000 ) ) ;
#140 = CARTESIAN_POINT ( 'NONE',  ( -3.000000000000000000, 1.836970198721029589E-15, -15.00000000000000000 ) ) ;
#141 = COORDINATED_UNIVERSAL_TIME_OFFSET ( 8, 0, .AHEAD. ) ;
#142 = ORIENTED_EDGE ( 'NONE', *, *, #80, .F. ) ;
#143 =( NAMED_UNIT ( * ) SI_UNIT ( $, .STERADIAN. ) SOLID_ANGLE_UNIT ( ) );
#144 = AXIS2_PLACEMENT_3D ( 'NONE', #131, #35, #92 ) ;
#145 = FACE_OUTER_BOUND ( 'NONE', #118, .T. ) ;
#146 = CARTESIAN_POINT ( 'NONE',  ( -3.000000000000000000, 0.000000000000000000, 0.000000000000000000 ) ) ;
#147 = FACE_OUTER_BOUND ( 'NONE', #159, .T. ) ;
#148 = COORDINATED_UNIVERSAL_TIME_OFFSET ( 8, 0, .AHEAD. ) ;
#149 = DATE_AND_TIME ( #30, #20 ) ;
#150 = ADVANCED_FACE ( 'NONE', ( #41 ), #72, .F. ) ;
#151 = PERSON_AND_ORGANIZATION_ROLE ( 'classification_officer' ) ;
#152 = AXIS2_PLACEMENT_3D ( 'NONE', #76, #107, #132 ) ;
#153 = CC_DESIGN_PERSON_AND_ORGANIZATION_ASSIGNMENT ( #14, #173, ( #29 ) ) ;
#154 =( LENGTH_UNIT ( ) NAMED_UNIT ( * ) SI_UNIT ( .MILLI., .METRE. ) );
#155 = LINE ( 'NONE', #34, #85 ) ;
#156 = DIRECTION ( 'NONE',  ( -1.000000000000000000, 0.000000000000000000, -0.000000000000000000 ) ) ;
#157 = CARTESIAN_POINT ( 'NONE',  ( -1.614212418857619014, 0.000000000000000000, 15.00000000000000000 ) ) ;
#158 = PRODUCT_DEFINITION_FORMATION_WITH_SPECIFIED_SOURCE ( 'ANY', '', #70, .NOT_KNOWN. ) ;
#159 = EDGE_LOOP ( 'NONE', ( #116, #23, #170, #104 ) ) ;
#160 = MECHANICAL_CONTEXT ( 'NONE', #37, 'mechanical' ) ;
#161 = EDGE_CURVE ( 'NONE', #172, #91, #111, .T. ) ;
#162 = DATE_TIME_ROLE ( 'classification_date' ) ;
#163 = CIRCLE ( 'NONE', #12, 15.00000000000000000 ) ;
#164 = AXIS2_PLACEMENT_3D ( 'NONE', #146, #139, #24 ) ;
#165 = ADVANCED_FACE ( 'NONE', ( #147 ), #11, .T. ) ;
#166 = COORDINATED_UNIVERSAL_TIME_OFFSET ( 8, 0, .AHEAD. ) ;
#167 = CARTESIAN_POINT ( 'NONE',  ( -3.000000000000000000, 0.000000000000000000, 0.000000000000000000 ) ) ;
#168 = DIRECTION ( 'NONE',  ( 0.000000000000000000, 0.000000000000000000, 1.000000000000000000 ) ) ;
#169 = ADVANCED_BREP_SHAPE_REPRESENTATION ( 'QB-CTZHWP-25.4-1310-M', ( #65, #119 ), #171 ) ;
#170 = ORIENTED_EDGE ( 'NONE', *, *, #39, .T. ) ;
#171 =( GEOMETRIC_REPRESENTATION_CONTEXT ( 3 ) GLOBAL_UNCERTAINTY_ASSIGNED_CONTEXT ( ( #4 ) ) GLOBAL_UNIT_ASSIGNED_CONTEXT ( ( #154, #22, #143 ) ) REPRESENTATION_CONTEXT ( 'NONE', 'WORKASPACE' ) );
#172 = VERTEX_POINT ( 'NONE', #90 ) ;
#173 = PERSON_AND_ORGANIZATION_ROLE ( 'creator' ) ;
#174 = EDGE_CURVE ( 'NONE', #25, #26, #9, .T. ) ;
#175 = APPROVAL_STATUS ( 'not_yet_approved' ) ;
ENDSEC;
END-ISO-10303-21;
